20211213

BILLY STRINGS - BOUND TO RIDE TAB


Billy Strings plays Bound To Ride by Peter Rowan (live 11/10/2020)
It's in Dropped D tuning with CAPO on the 5th fret
Download the TAB under the video



BOUND TO RIDE TAB

PDF + GUITAR PRO >>


- Capo on the 5th -

e-------------------------------0-0-------------x-----3-----2---2-2-----
B-------------------------------0-0-------------3-----3-----3---3-3-----
G-------------------0-----0-----0---------------2-----2-----2---2-2-----
D-----------0-----------0-------0---0-----------0-----0-0-0-0---0-0-----
A-------0-2-----2/5---5-----5---5-----2-0-------0---0---0-0-0---0-0-----
D---0-4-----------------------------------4-0-------0---0---0---0-------


e-------------------------------0-0-------------x-----3-----2---2-2-----
B-------------------------------0-0-------------3-----3-----3---3-3-----
G-------------------0-----0-----0---------------2-----2-----2---2-2-----
D-----------0-----------0-------0---0-----------0-----0-0-0-0---0-0-----
A-------0-2-----2/5---5-----5---5-----2-0-------0---0---0-0-0---0-0-----
D---0-4-----------------------------------4-0-------0---0---0---0-------


e-------------------------------0-0-------------------3-----2---2-2-----
B-------------------------------0-0-------------3-----------3---3-3-----
G-------------------0-----0-----0-------------------2-----2-----2-2-----
D-----------0-----------0-------0---0-------------0-----0-------0-0-----
A-------0-2-----2/5---5-----5---5-----2-0-----------------------0-0-----
D---0-4-----------------------------------4-0-------------------0-------


e-------------------------------0-0---------2--------2-----2-----3p2----
B-------------------------------0-0---------3--------3-----3---------3--
G-------------------0-----0-----0-----------2--------2-----2------------
D-----------0-----------0-------0---0-------0--------0-----0---0--------
A-------0-2-----2/5---5-----5---5-----2-0---0------------------0--------
D---0-4-------------------------------------0------------------0--------

 etc ...