20211222

DUST IN THE WIND FINGERSTYLE TAB


Kansas - Dust in the Wind fingerstyle classical guitar cover by Michael Lucarelli
It's arranged in standard tuning and no Capo is used
Download the TAB under the video



DUST IN THE WIND FINGERSTYLE TAB

PDF + GUITAR PRO >>


e-----------------------------------------------------------------------
B---1---------1-----0---------0-----3---------3-----1---------1---------
G---------0-------0-------0-------0-------0-------0-------0-------0-----
D-------2-------2-------2-------2-------2-------2-------2-------2-------
A---3-------3-------3-------3-------3-------3-------3-------3-----------
E-----------------------------------------------------------------------


e-----------------------------------------------------------------------
B---0---------0-----3---------3-----1---------1-----0---------0---------
G---------2-------2-------2-------2-------2-------2-------2-------0-----
D-------2-------2-------2-------2-------2-------2-------2-------2-------
A---0-------0-------0-------0-------0-------0-------0-------0-----------
E-----------------------------------------------------------------------


e-----------------------------------------------------------------------
B---3---------3-----1---------1-----0---------0-----1---------1---------
G---------0-------0-------0-------0-------0-------0-------0-------0-----
D-------2-------2-------2-------2-------2-------2-------2-------2-------
A---3-------3-------3-------3-------3-------3-------3-------3-----------
E-----------------------------------------------------------------------


e-----------------------------------------------------------------------
B---1---------1-----0---------0-----3---------3-----1-------1---3-------
G---------2-------2-------2-------2-------2-------2-------2-----0-------
D-------2-------2-------2-------2-------2-------2-------2---------------
A---0-------0-------0-------0-------0-------0-------0-------0---2-------
E-----------------------------------------------------------------------

 etc ...