DEÁK BILL GYULA - A FELSZARVAZOTTAK BALLADÁJA TAB (GUITAR PRO)


Deák Bill Gyula - A Felszarvazottak Balladája hungarian blues rock song from 1984
The whole lead guitar line is transcribed
Download the TAB under the video



A FELSZARVAZOTTAK BALLADÁJA TAB

PDF + GUITAR PRO >>

Intro

e-----------------------------------------------------------------------
B-----------------------------------------------------------------------
G---------------5---------------------3---3-----------------------------
D---6/7---7-9-7-7---7-9---6\5---5-7-5-5---5-----------------------------
A---4/5---5-5-5-5---5-5---4\3---3-3-3-3---3-----------------------------
E-------------------------------------------6'----3.--------------------


e-------3----------------------------------------3----------------------
B---2/3---6p3---------------3------------------3---6/8------------------
G-------------6p5p3---5-3h4---3(4)---------3h4--------------------------
D-------------------5---------------------------------------------------
A------------------------------------5-5--------------------------------
E-----------------------------------------------------------------------


Verse

e-----------------------------------------------------------------------
B-----------------------------------------------------------------------
G----------4\3.------------4/5.-------4\3.------------------------------
D----------x---------------x----------x---------------------------------
A----------4\3.------------4/5.-------4\3.------------------------------
E-----------------------------------------------------------------------


e-------3-----------------------------------------3---------------------
B---2/3---6p3---------------3-------------------3---6/8-----------------
G-------------6p5p3---5-3h4---3(4)----------3h4-------------------------
D-------------------5---------------------------------------------------
A----------------------------------5-5----------------------------------
E-----------------------------------------------------------------------

 etc ...