SHADOWY MEN ON A SHADOWY PLANET - MECCA TAB



Shadowy Men On A Shadowy Planet - Mecca vintage instrumental guitar song
Download the TAB under the video



SHADOWY MEN ON A SHADOWY PLANET MECCA TAB

PDF + GUITAR PRO >>

Part 1

e-----------------------------------------------------------------------
B-----------------------------------------------------------------------
G---14~---14~---14-15-14-13-14~---14~---14-15-14-13---------------------
D-----------------------------------------------------------------------
A-----------------------------------------------------------------------
E-----------------------------------------------------------------------


e-----------------------------------------------------------------------
B-----------------------------------------------------------------------
G---14~---14-14-13h14~---14-14-13h14-14-12-12---------------------------
D---------------------------------------------15-15-14\-----------------
A------------------------------------------------------0----------------
E-----------------------------------------------------------------------


e-----------------------------------------------------------------------
B-----------------------------------------------------------------------
G----------------7---7h9-7~-----77-7-7-7h9-7---7h9-7\-------------------
D-------3/---7----------------------------------------------------------
A---5-------------------------------------------------------------------
E-----------------------------------------------------------------------


e-----------------------------------------------------------------------
B-----------------------------------------------------------------------
G---5-------------------5-----------------------------------------------
D-------5---7---8---7-----7~-----0-x7-7-8-7-5-7-5-----------------------
A-------------------------------------------------8\-0------------------
E-----------------------------------------------------------------------


e-----------------------------------------------------------------------
B-----------------------------------------------------------------------
G----------------7---9---7-9-(10)-(9)-7-5---3-5~-----3------------------
D-------3/---7----------------------------------------------------------
A---5-------------------------------------------------------------------
E-----------------------------------------------------------------------


e-----------------------------------------------------------------------
B-----------------------------------------------------------------------
G-----------------------5-----------------------------------------------
D---2-2-2---3---5---5/7---7~--------------------------------------------
A-----------------------------------------------------------------------
E-----------------------------------------------------------------------

 etc ...