20220124

Y Vân - Lòng Mẹ FINGERSTYLE TAB (Mèo Ú Guitar)


Y Vân - Lòng Mẹ (Mother's Heart) fingerstyle guitar cover played by Mèo Ú Guitar
Beautiful vietnamese song in standard tuning with Capo on the 2nd fret
Download the TAB under the video



Y Vân - Lòng Mẹ FINGERSTYLE TAB

PDF + GUITAR PRO >>

Part 1

e--------------------------------------------0-----------------------0--
B-------1---3/5~---5~------3-1-1h3p1---------1-------------------1---1--
G---2--------------------------------2-------2-----0h2---2-----2-----2--
D----------------------------------------2-------------------2-----2----
A------------------0-----------------0-------------------0--------------
E-----------------------------------------------------------------------


e---------5---7---8-------7h8p7-5-7~-0-------0-------0------------------
B---1/5-----------------5-5------------------1---0-----------0----------
G---------------------5---5------------------2---------------1----------
D----------------------------------------2------------------------------
A-----------------0------------------0-------------------2--------------
E----------------------------------------------------0------------------


e--------------------------------------0-------------------0------------
B-------0h1-3/5~-5~------3-1-1h3p1-----1-------------------1------------
G---2------------------------------2---2-------0-2---------2------------
D------------------------------------3-----------------2----------------
A----------------0---------------------------------0--------------------
E-----------------------------------------------------------------------


e---8-5--\1--/3-0-------0-----------0--------0-------0---------------0--
B-----------------------1---3-1-1h3----------0---0---0-------0-----0----
G-----------------------2-----------------2----------1-----1-----1------
D--------------------------------------3-----------------2-----2--------
A-------------------0---------------2------------------2----------------
E----------------------------------------------------0------------------

 etc ...