BILLY STRINGS - 1936 MARTIN 000-28 GUITAR DEMO TAB (NASHVILLE BLUES)


Billy Strings plays a cool "Nashville Blues jam" on a 1936 Martin 000-28 guitar
Video and guitar provided by Carter Vintage Guitars
Download the TAB under the video



BILLY STRINGS 1936 MARTIN 000-28 GUITAR DEMO TAB

PDF + GUITAR PRO >>

e---------------------------------------3-----3-3-3---0-1-0-------------
B---------------------------------------3-----3-3-3---------3-1---0-----
G---------0-----0-0-----0---------------0---0-0-0-0-0-----------3-------
D---------0-----0-0---------2-0-----0---0---0---0---0-------------------
A---------x-----x---------------2-------x---x---------------------------
E---2h3-----3-3-3---3-------------------3---3---------------------------


e-----------------------0-0-0-0-3-0-5-3---0-------0---------------------
B-----------------------0-0-0-----------4---1---1---1-2p1---1-----------
G---2-0-----0-----------0---------------------3-----------3---3/4-0-----
D-------2p0---0-2p0-3---------------------------------------------------
A-----------------------------------------------------------------------
E-----------------------------------------------------------------------


e-----------------------------------------------------------------------
B-----------------------/3--/3--/3--------------------------------------
G---3p2p0----0-------0--/2--/2--/2---1p0-----------------0-3/4-0--------
D--------3p0---0-3p0---------------------3/4-0-------0-3---------3p0----
A----------------------------------------------0-3/5--------------------
E-----------------------------------------------------------------------


e-------3-3---3-3-3---3-----------------3-----3-3-3---------------------
B-------3-3---3-3-3---3-----------------0-----0-0-0---3-3---2---1-------
G---0-----0-0-0-0-0-0-0-----------------0---0-0-0-0---4-4---3---2-------
D-----------0---0---0---0-0-0-------0---0---0---0---0-------------------
A-----------x-------x-----------2-------x---x---------------------------
E-----------3-------3-------------------3---3---------------------------

 etc ...