BOYCE AVENUE - HEAVEN TAB (ACOUSTIC)


Bryan Adams - Heaven acoustic cover played by Boyce Avenue and Megan Nicole
It's arranged in half-step down tuning (the original song is in standard tuning )
Download the TAB under the video



BOYCE AVENUE - HEAVEN ACOUSTIC TAB

PDF + GUITAR PRO >>

Intro

eb----------------------------------------------------------------------
Bb-----------1-------------1-----------------1-------------1------------
Gb-------0-------0-------0-----0---0-----0-------0-------0-----0---0----
Db---2-------------2-3-----------3---2-------------2-3-----------3------
Ab---3---------------3---------------3---------------3------------------
Eb----------------------------------------------------------------------


Verse

eb----------------------------------------------------------------------
Bb-----------1---------------1---------------3--------------------------
Gb-----------0---------------2-----------0---0--------------------------
Db---2-------------------2---------------0------------------------------
Ab---3---------------0---------------2----------------------------------
Eb-----------------------------------3----------------------------------


eb-----------1----------------------------------------------------------
Bb-------3---3---3-0---------1---1-0---------3---------------3----------
Gb---2---2-------2-------2---2---2-----------3-----3-----0---0-----0----
Db---0---------------2---2---------------3-------3-------0-------0------
Ab-------------------0---------------1---------------2------------------
Eb---------------------------------------------------3------------------


eb----------------------------------------------------------------------
Bb-----------1---------------1---------------3--------------------------
Gb-------0---------0-----2---2---2-0-----0---0--------------------------
Db---2-----------2---2---2-------2-------0------------------------------
Ab---3---------------0---------------2----------------------------------
Eb-----------------------------------3----------------------------------

 etc ...