20220414

BILLY STRINGS - BEAUMONT RAG TAB


Billy Strings plays Beaumont Rag on Facebook Live (18-4-2017)
It's in standard tuning with CAPO on the 2nd fret
Download the TAB under the video



BEAUMONT RAG TAB

PDF + GUITAR PRO >>

e---------------------------0-------1-3-1-0---1-0-----0-----------0-----
B-----------2~------3~----------------------3-----3-1---3-1-0-----------
G-------------------------------------------------------------2-0-------
D-----------------------------------------------------------------------
A-----------------------------------------------------------------------
E-----------------------------------------------------------------------


e-----0---0---------------0---------------------------------------------
B---4---4---3-1-----1---1-----------------------------------------------
G---------------2p0---3-----2-0-----------------------------------------
D-------------------------------3-2-------------------------------------
A-----------------------------------------------------------------------
E-----------------------------------------------------------------------


e-----------------------------------------------------------------------
B---------------------------------------------------------------0-------
G---------0---2-0---------0---2-0-----------0-2-0-----------0-2---------
D---0-2-3---------2-0-2-3---------2---0-2-3-------2---0-2-3-------------
A-----------------------------------3---------------3-------------------
E-----------------------------------------------------------------------


e---5-5-5-x---1-1-x-------------3-0-5-3---0---0---0-0-------0-0---------
B---6-6-6-x-3---3-x-----3---------------4---4---4---1---1---1-1---------
G-------------------2/4-----0---------------------------3-------0-1-----
D-----------------------------------------------------------------------
A-----------------------------------------------------------------------
E-----------------------------------------------------------------------


e---------------------0---------------0-----------------0---0-0---------
B---------0-1---1-3/5---3-1-----1---------0-------------1---1-1---------
G---2-1-2-----2-------------2p0---2/4---2---0-----------0---0-0---------
D---------------------------------------------1p0-0-----2---2-----------
A---------------------------------------------------3-----------0-1-----
E-----------------------------------------------------------------------

 etc ...