EL FAROL ACOUSTIC TAB


Carlos Santana - El Farol acoustic guitar cover played by The Kings of Lounge
The guitarists are Nick Cowen and Nick Merchant (both in standard tuning)
Download the TAB under the video



SANTANA EL FAROL ACOUSTIC TAB

PDF + GUITAR PRO >>


e-----8~----------------------------8-7~--------3-----------------------
B---5---------------5-6~----------------------3---3/5~------------------
G-----------------------------------------------------------------------
D-----------------------------------------------------------------------
A-----------------------------------------------------------------------
E-----------------------------------------------------------------------


e---5~----------------------------5-4-----------------------------------
B-----------------1/3~--------3-6------6--5h6p5--3---3h5p3h5~-----------
G---------------------------4----------------------5--------------------
D-----------------------------------------------------------------------
A-----------------------------------------------------------------------
E-----------------------------------------------------------------------


e-----8~----------------------------8-7~--------3-----------------------
B---5---------------5-6~----------------------3---3/5~----5/8~----------
G-----------------------------------------------------------------------
D-----------------------------------------------------------------------
A-----------------------------------------------------------------------
E-----------------------------------------------------------------------


e---5~----------------------------5-4h5p4-------------------------------
B----------------1-1/3~-------3-6----------6--5h6p5--3---3-5p3h5~-------
G---------------------------4--------------------------5----------------
D-----------------------------------------------------------------------
A-----------------------------------------------------------------------
E-----------------------------------------------------------------------

 etc ...