20220520

DAVID GRIER - RED HAIRED BOY TAB (LIVE)


David Grier - Red Haired Boy live at the Midwest Banjo Camp's Faculty Concert 2011
It's in Standard tuning with Capo on the 2nd fret
Download the TAB under the video



DAVID GRIER - RED HAIRED BOY TAB

PDF + GUITAR PRO >>

- Capo on the 2nd -

e-----------------------------------------------------------------------
B---------------------------0-1-3---3---------3-----3-----3-------------
G---0---------0-----0---0h2---------0-------0---------0---------0-------
D---------2p0-----0-----------------2-----2-------2-----2-----2---------
A-----------------------------------3---3-------3-----------3-----------
E-------3-------3-------------------------------------------------------


e---------------------------------0-------------------------------------
B---3-------------0h1---0---------------0---------1p0-------------------
G---0-----0-----0-----0-----0h2-----------------2-----2-0---------------
D---0---------0-------------3-----------------3-----------3-------------
A---x-----------------------3---3---3-------3---------------------------
E---3---3---3-----------------------------------------------------------


e-----------------------------------------------------0-2-3-------------
B-------------------0-1-3---3---------3-----3-----3---------------------
G-----0-----0---0h2---------0-------0-----0---0-----0-------------------
D---0-----0-----------------2-----2-------------2-----------------------
A---------------------------3---3-------3-------------------------------
E-------3---------------------------------------------------------------


e-------2p0-----3-3-------------3.--------------------------------------
B-----------3---1-----1p0-----------------1-------3-------3-------------
G-------------2-x---------2-0-----------0-------0-------0---------------
D---0-----------2---2-----------------2-------0-------------------------
A-----------------------------------3-------2-------2p0-----------------
E-----------------------------------------------------------------------


e-----------------------------------------------------------------------
B-------------------0-1-3---3---------3-----3-----3---------------------
G---------0-----0h2---------0-------0-----0---0---------0---------------
D-------0-----0-------------2-----2-------------2-----2-----------------
A---------------------------3---3-------3-----------3-------------------
E---2/3-----3-----------------------------------------------------------

 etc ...