20220514

GIRL FROM IPANEMA TAB (GUITAR CHORDS) STAN GETZ - JOAO GILBERTO


Stan Getz & João Gilberto - The Girl From Ipanema acoustic guitar chords (1963)
It's in Standard tuning based on this particular version
Download the TAB under the video



GIRL FROM IPANEMA TAB

PDF + GUITAR PRO >>

Intro

e-----------------------------------------------------------------------
B---4---4-----4-----4---4-----4-----4---4-----4-----4---4-----4---------
G---3---3-----3-----3---3-----3-----3---3-----3-----3---3-----3---------
D---3---3-----3-----3---3-----3-----3---3-----3-----3---3-----3---------
A-----------------------------------------------------------------------
E---4-------4-------4-------4-------4-------4-------4-------4-----------


Verse

e-----------------------------------------------------------------------
B---4---4-----4-----4---4-----4.----6.--6-----6.--6-----6-----6.--------
G---3---3-----3-----3---3-----3.----6.--6-----6.--6-----6-----6.--x-----
D---3---3-----3-----3---3-----3.----5.--5-----5.--5-----5-----5.--x-----
A-----------------------------------------------------------------------
E---4-------4-------4-------4-----x-6.------6-------6.------6-----------


e-----------------------------------------------------------------------
B---6.--6-----6.--------------------4.--4-----4.----5.--5-----5.--------
G---6.--6-----6.--x-5.--5-----5.--x-3.--3-----3.--x-4.--4-----4.--x-----
D---4.--4-----4.--x-4.--4-----4.--x-3.--3-----3.--x-4.--4-----4.--x-----
A-----------------------------------------------------------------------
E---6.------6-------5.------5-------4.------4-------5.------5-----------


e-----------------------------------------------------------------------
B---4.--4-----4.--4-----4-----4.----6.--6.--6-6.--6-6-6.--6---6.--------
G---3.--3-----3.--3-----3-----3.--x-6.--6.--6-6.--6-6-6.--6---6.--x-----
D---3.--3-----3.--3-----3-----3.--x-5.--5.--5-5.--5-5-5.--5---5.--x-----
A-----------------------------------------------------------------------
E---4.------4-------4.------4-------6.------6-------6-------6-----------


e-----------------------------------------------------------------------
B---6.--6-----6.--------------------4.--4-----4.--4-----4-----4.--------
G---6.--6-----6.--x-5.--5-----5.--x-3.--3-----3.--3-----3-----3.--x-----
D---4.--4-----4.--x-4.--4-----4.--x-3.--3-----3.--3-----3-----3.--x-----
A-----------------------------------------------------------------------
E---6.------6-------4.------4-------4.------4-------4.------4-----------

 etc ...