MASSACHUSETTS INSTRUMENTAL GUITAR TAB (DAVE MONK)


Bee Gees - Massachusetts instrumental guitar cover played by Dave Monk
Easy guitar instrumental with backing track
Download the TAB under the video



MASSACHUSETTS INSTRUMENTAL TAB

PDF + GUITAR PRO >>

e-----------------------------------------------------------------------
B-----------------------------------------------------------------------
G-----------------------------------------------------------------------
D-----------------------------------------------------------------------
A--------------5/7-7~---------5~-----5----------------------------------
E---5~-----5-7--------------7----------7\5-5~---------------------------


e-----------------------------------------------------------------------
B-----------------------------------------------------------------------
G-----------------------------------------------------------------------
D-----------------------------------------------------------------------
A--------------5/7-7~---------5~-----5----------------------------------
E---5~-----5-7--------------7----------7\5-5~---------------------------


e-----------------------------------------------------------------------
B-----------------------------------------------------------------------
G----------------------------7~-------7~-------6\4-4~-------------------
D---4---5/7-7~-------4/7-7----------7--------7-7\5-5~-------------------
A-----------------------------------------------------------------------
E-----------------------------------------------------------------------


e------------------------------------------------------------9----------
B--------------------------------------------------------------10-------
G-----------------------------------------------------------------9~----
D---0-----------------------4h5-5~-----5-4\2-2---0----------------------
A-------4-----2-0-------------------------------------------------------
E-----------------------------------------------------------------------

 etc ...