BILLY STRINGS - MAMA TRIED SOLO TAB (LIVE FROM THE TOUR BUS)


Billy Strings plays Mama Tried on his Instagram Live from the tour bus (10/12/21)
The solo part goes from 24:05 till 24:40 (standard tuning + CAPO on the 2nd)
Download the TAB under the video



BILLY STRINGS - MAMA TRIED SOLO TAB

PDF + GUITAR PRO >>

- Capo on the 2nd -

e-------2-2---2-2-2-----------------------------------------------------
B-------3-3---3-3-3-------3-------0-------------------------------------
G-------2-2---2-2-2-----------0-----------------------------------------
D---0-------0-------0-------0---2---------------------------------------
A---------------------0h2-----------------------------------------------
E-----------------------------------------------------------------------


e-----------------------------------------2-------------3-----3---0-----
B-------3-----3---0-----3-----3---0-----3---3---------------3-----------
G-----2-----2---------0-----0-------0-2-----2---0---2/4---4-----4-------
D---4-----4-----0---5-----5-----4---------------------------------------
A-----------------------------------------------------------------------
E-----------------------------------------------------------------------


e---------0-------------------------------------------------------------
B---3---3-------3-3---------------------2-----2---2-----2---------------
G---2---2---2---2-2-----------------2-------2---2-------2---------------
D-------------4-----4/5-4---2---0---2-----2-------------2-------0-------
A---------------------------------------------------0-------0-2---------
E-----------------------------------------------------------------------


e-------------------------------------------2---------------3-----------
B-------3---3-------------3-----3---0-----3---------------3-------------
G-----------2---------0-------0-------0-2-----2---0---2/4---------------
D---3/4---4---4-2-4/5-------5-----4-----------0-------------------------
A-----------------------------------------------------------------------
E-----------------------------------------------------------------------

 etc ...