20220604

BILLY STRINGS - TENNESSEE STUD TAB (FRETBOARD JOURNAL)


Billy Strings plays Tennessee Stud live at the Fretboard Journal
It's in Standard tuning with CAPO on the 3rd fret
Download the TAB under the video



BILLY STRINGS - TENNESSEE STUD TAB

PDF + GUITAR PRO >>

Intro

e-------------------------------------------------------2-2.--2---------
B---------------------------------3---------------------3-3.--3---------
G---2-0-------------------x-x-----2---2-0---------------2-2.--2---------
D-------4-2-0-------0---0-x-3/4-----------4-2-0-------0-------0---------
A---------------2p0---2---------------------------2p0-------------------
E-----------------------------------------------------------------------


e-------------------------------------------------------2-2.--2---------
B---------------------------------3---------------------3-3.--3---------
G---2-0-------------------x-x-----2---2-0---------------2-2.--2---------
D-------4-2-0-------0---0-x-3/4-----------4-2-0-------0-------0---------
A---------------2p0---2---------------------------2p0-------------------
E-----------------------------------------------------------------------


e-------2-x-----0-x-----2.--2-----x-----2-x-----0-x-----0-0-------------
B-------3-x---1-1-x---3-3.--3-----x-----3-x---1-1-x-----3-3-------------
G---2---2-----0-0-----2-2.--2-----------2-----0-0-------2-2-------------
D---------------2---0-------0-------0-----------2---0-------------------
A-----------3-------------------------------3-------------------0-2-----
E-----------------------------------------------------------0-2---------


e-------2-2-2-2-2-2-----2-2-2-2-2-2-------------------------------------
B-------3-3-3-3-3-3-----3-3-3-3-3-3-------------------------------------
G-------2-2-2-2-2-2-----2-2-2-2-2-2-------------------------------------
D---0---------------0---------------------------------------------------
A-----------------------------------------------------------------------
E-----------------------------------------------------------------------

 etc ...