20130129

GUNS N ROSES KNOCKIN ON HEAVENS DOOR SOLO TAB


Guns N Roses - Knockin' On Heavens Door solo 1 + solo 2 in standard tuning
Solo 1 starts around 1:20 and solo 2 starts aound 2:40
Download the TAB under the video



KNOCKIN ON HEAVENS DOOR SOLO TAB

GP5 + GP6 + PDF >>

Solo 1

e-----------------------------------------------------------------------
B---------------------------15.-----------------------------------------
G--12.--(16)---(14)p12-14~-------(16)(14)p12-12~~-----------------------
D-----------------------------------------------------------------------
A-----------------------------------------------------------------------
E-----------------------------------------------------------------------


e-----------------------------------------------------------------------
B---------15/17-15~-----13\12-13-(15)------13p12-13----p12--------------
G------12---------------------------------------------------------------
D--/14-----------------------------------------------------14~----------
A-----------------------------------------------------------------------
E-----------------------------------------------------------------------


e--------15----------------15-17(19)--17~------(19).--17(19)--15~-------
B--12-13----13-12~------/17---------------------------------------------
G-----------------------------------------------------------------------
D-----------------------------------------------------------------------
A-----------------------------------------------------------------------
E-----------------------------------------------------------------------



e--20(22)---20p19-20---19-20(22)---20p19-20---20------------------------
B------------------------------------------------17~~~------------------
G-----------------------------------------------------------------------
D-----------------------------------------------------------------------
A-----------------------------------------------------------------------
E-----------------------------------------------------------------------

                                             T
e-----------------------------------------------------------------------
B--15(17)(15)(17)(15)---------------------------------------------------
G---------------------14(16)(14)(16)(14)-12-<24>------------------------
D-----------------------------------------------------------------------
A-----------------------------------------------------------------------
E-----------------------------------------------------------------------



Solo 2

e---------------12-15-14(15)---------14~~~------------------------------
B------13----13---------------------------------------------------------
G---------12------------------------------------------------------------
D-----------------------------------------------------------------------
A-----------------------------------------------------------------------
E-----------------------------------------------------------------------


e--14(15)(14)p12-15p12--------------15--------15------------------------
B----------------------15(17)~---------15(17)----(17)(15)-13-15---------
G-----------------------------------------------------------------------
D-----------------------------------------------------------------------
A-----------------------------------------------------------------------
E-----------------------------------------------------------------------


e------------15---------------------15----------------------------------
B--------------15---------------------15-15-------15--------------------
G---14(16)-------(16)(14)-12-14~---------14(16)---14(16)---12~----------
D-----------------------------------------------------------------------
A-----------------------------------------------------------------------
E-----------------------------------------------------------------------


e--------15--17(19)---17p15-17-15-20-19-20-20(22)---20-19-20-20(22)-----
B------15--15-----------------------------------------------------------
G---/16-----------------------------------------------------------------
D-----------------------------------------------------------------------
A-----------------------------------------------------------------------
E-----------------------------------------------------------------------


e---20-19-20-22(24)---22(24)---22-------------22------------------------
B---------------------------------20-22(24)-----(24)-(22)p20------------
G-----------------------------------------------------------------------
D-----------------------------------------------------------------------
A-----------------------------------------------------------------------
E-----------------------------------------------------------------------


e-----------------------------------------------------------------------
B---22.--(24)(22)p20-22-20.--19(20)~------20-19~------------------------
G-----------------------------------------------------------------------
D-----------------------------------------------------------------------
A-----------------------------------------------------------------------
E-----------------------------------------------------------------------


e--------------------------------15------15-----------------------------
B---19(20)(19)p17-19p17-17~--------17~-----17-p15-13--15-12(13)(12)-----
G-----------------------------------------------------------------------
D-----------------------------------------------------------------------
A-----------------------------------------------------------------------
E-----------------------------------------------------------------------


e-----------------------------------------------------------------------
B---12(13)(12)~---------------------------------------------------------
G----------------------12-------11~----------11(12)(11)\9~--------------
D-----------------------------------------------------------------------
A-----------------------------------------------------------------------
E-----------------------------------------------------------------------


e-----------------------------------------------------------------------
B-----------------------------------------------------------------------
G---\7~----------------5-p4---------------------------------------------
D---------------------------5~~~----------------------------------------
A-----------------------------------------------------------------------
E-----------------------------------------------------------------------




DOWNLOAD THIS SOLO TAB IN GUITAR PRO



  • click 'Free Download'
  • add your e-mail address
  • you will get an e-mail with your download links (in a few seconds)
  • download the Guitar Pro 6 tab + GP5 + PDF for free
  • and that's all ...


Guitar Pro: a complete workshop for guitarists at an affordable price