20130204

COMFORTABLY NUMB SOLO TAB (ELECTRIC GUITAR SOLO TAB)


Pink Floyd - Comfortably Numb guitar solo cover played by Thomas75s
He plays an improvisation part after the original solo cover
Download the TAB under the video



COMFORTABLY NUMB SOLO TAB

GP5 + GP6 + PDF >>

Solo

e---14~~------14(15)-(14)-----------------------------------------------
B---x---------------------15(17)~~------(17)15---14-14------------------
G---x--------------------------------------------------14---------------
D---------------------------------------------------------14~-----------
A-----------------------------------------------------------------------
E-----------------------------------------------------------------------


e-----------------------14-(15)-(14)------------------------------------
B------------------------------------15(17)~~---------------------------
G-------------------/14-------------------------------------------------
D---\12-12~~------\-----------------------------------------------------
A-----------------------------------------------------------------------
E-----------------------------------------------------------------------


e-----------------------------------------------------------------------
B---(17)15---14---------------------------------------------------------
G---------------14----------------------/12~~~----------------------\---
D-------------------14--\12--11--\9--\7---------------------------------
A-----------------------------------------------------------------------
E-----------------------------------------------------------------------



e-----------------------------------------------------------------------
B-----------------------------------------------------------------------
G---9(11)---(9)-7~-----11p9-9~---\7-7~~-----------9p7---7h9-/11---------
D-----------------------------------------------------9-----------------
A-----------------------------------------------------------------------
E-----------------------------------------------------------------------


e---------------------/15--14-\12---------------------------------------
B----------------------------------15-\12-------------------------------
G-----11(12)~~---\-------------------------12---------------------------
D----------------------------------------------12~~------10\9~----------
A-----------------------------------------------------------------------
E-----------------------------------------------------------------------


e-----------------------------------------------------------------------
B-----------------------------------------------------------------------
G-----------------------------------------------------------------------
D---10p9\7~~~-----------------------------------------------------------
A-----------------------------------------------------------------------
E-----------------------------------------------------------------------


e-----------------------------------------------------------------------
B-----------------------------------------------------------------------
G---11(12)-(11)(12)(11)(12)~~-----------9(11)---(9)-7~------------------
D---------------------------------------x-------------------------------
A-----------------------------------------------------------------------
E-----------------------------------------------------------------------


e-----------------------------------------------------------------------
B------------------------------x-x-3------------------------------------
G---2/4\2~~--------------------x-x-2------------------------------------
D------------------------------x-x-0------------------------------------
A------------------------------x-x-0------------------------------------
E-----------------------------------------------------------------------


Improvisation Part

e-----------------------------------------------------------------------
B-----------------------------------------------------------------------
G---7---9-9(11)~~~------------9(11)---(9)p7--9.-9~--p7-----7'-----------
D-----------------------------x------------9-----------9----------------
A-----------------------------------------------------------------------
E-----------------------------------------------------------------------


e-----------------------------------------------------------------------
B---------10----10-10~~---12.--12(15)---(12)p10-12-(15)-(12)~~----------
G---/11------11---------------------------------------------------------
D-----------------------------------------------------------------------
A-----------------------------------------------------------------------
E-----------------------------------------------------------------------





DOWNLOAD THE COMPLETE SOLO TAB HERE



  • click 'Free Download'
  • add your e-mail address
  • you will get an e-mail with your download links (in a few seconds)
  • download the Guitar Pro 6 tab + GP5 + PDF for free
  • and that's all ...


Guitar Pro: a complete workshop for guitarists at an affordable price