20130523

ERIC CLAPTON WONDERFUL TONIGHT TAB (HYDE PARK 1996)

Eric Clapton performs Wonderful Tonight live in Hyde Park (1996)
All his guitar playing is transcribed (rhythm parts + solos)
Download the TAB under the video



ERIC CLAPTON WONDERFUL TONIGHT TAB                   


Intro

e----------0-----------------------0-----------------------1------------
B-------3--------3--------------3--------3--------------1--------1------
G----4--------------4--------2--------------2--------0--------------0---
D-5--------------------0--4--------------------0-----2-----------------2
A-------------------------------------------------3---------------------
E-----------------------------------------------------------------------


e-------------0--------------------0-----------------------0------------
B-------3--------3--------------3--------3--------------3-------3-------
G----2-----2--------2--------4--------------4--------2-------------2----
D-0--------------------0--5--------------------5--4-------------------4-
A-----------------------------------------------------------------------
E-----------------------------------------------------------------------



e-----------0-----------------------------------------------------------
B--------1-------1-----------3------------------------------------------
G-----0-------------0---------------------------------------------------
D-0h2------------------2--0-----2----4----/7-----5----------------------
A-----------------------------------------------------------------------
E-----------------------------------------------------------------------



Solo

e-----------------------------------------------------------------------
B-----10(12)---(10)---8--10~----------10(12)---(10)-(12)(10)p8----------
G-7-------------------------------7------------------------------9------
D-----------------------------------------------------------------------
A-----------------------------------------------------------------------
E-----------------------------------------------------------------------


e-----------------------------------------10---10--------10h12-10----h12
B-----10(12)---(10)---8--10~------10/12-------------12------------------
G-7---------------------------------------------------------------------
D-----------------------------------------------------------------------
A-----------------------------------------------------------------------
E-----------------------------------------------------------------------


e-----------------------------------------------------------------------
B-----10(12)---(10)-(12)(10)p8---10----------10(12)---(10)---8----------
G-7--------------------------------------7-----------------------9~-----
D-----------------------------------------------------------------------
A-----------------------------------------------------------------------
E-----------------------------------------------------------------------


e-----------------------------------------------------------------------
B-----10(12)---(10)-(12)(10)p8~-----10-----10/12-----13.---15(17)----15~
G-7---------------------------------------------------------------------
D-----------------------------------------------------------------------
A-----------------------------------------------------------------------
E-----------------------------------------------------------------------



Verse

e(------------0---------)-------------0-----------------------0---------
B(------3--------3------)-------3--------3---------------1-------1------
G(---4-----4--------4---)----2-----2--------2---------0-----0-------0---
D(5--------------------5)-4--------------------4--0h2------------------2
A(----------------------)-----------------------------------------------
E(----------------------)-----------------------------------------------


e-------------0---------------------------------------------------------
B-------3--------3------------------------------------------------------
G----2-----2--------2---------------------------------------------------
D-0--------------------0------------------------------------------------
A-----------------------------------------------------------------------
E-----------------------------------------------------------------------


e-------------0--------------------------0--------------------0---------
B-------3--------3--------------3-----------3------------1-------1------
G----4-----4--------4--------2-----2-----------2------0-----0-------0---
D-5--------------------5--4-----------4-----------0h2------------------2
A-----------------------------------------------------------------------
E-----------------------------------------------------------------------