20140212

AOI SHIORI FINGERSTYLE GUITAR TAB


Galileo Galilei - Aoi Shiori acoustic fingerstyle guitar cover by EvanFingerstyle
It's in DADGAD tuning (Open Dsus4) with Capo on the 2nd fret
Download the TAB under the video



AOI SHIORI FINGERSTYLE TAB

GP5 + GP6 + PDF >>

- CAPO on the 2nd -

Part 1

D---0---2---0---2---0-----12-<12>----<19>-------------------------------
A---0-0---0---0---0---0---12-----<12>-----------------------------------
G---0------------------h9-----------------------------------------------
D---0-----2---0---2---0-------------------------------------------------
A---0-------------------------------------------------------------------
D---0-------------------------------------------------------------------


D---0---2---0---2---0-----12-<12>----<19>-------------------------------
A---0-0---0---0---0---0---12-----<12>-----------------------------------
G---0------------------h9-----------------------------------------------
D---------2---0---2---0-------------------------------------------------
A-----------------------------------------------------------------------
D---0-------------------------------------------------------------------


Part 2

D-----------------------------------------------------------------------
A---0-------0-0-0h2-0---------------------------------------------------
G-----------------------------------------------------------------------
D-------4---------------2-------0h2-4-5p4-2---0---2/4-------------------
A-------------------0-0-x-0-0-0---------------------------7-7-----------
D---0-0-x-0-0-0-x---------------x---2-2-x-2-2-0-x---5-5-x-5-5-5-x-0-----



D-----------------------------------------------------------------------
A---0-------0-0-0h2-0---------------------------------------------------
G-----------------------------------------------------------------------
D-------4---------------2-------0h2-4-5p4-2---0---2/4-------------------
A-------------------0-0-x-0-0-0---------------------------7-7-----------
D---0-0-x-0-0-0-x---------------x---2-2-x-2-2-0-x---5-5-x-5-5-5-x-0-----


D-----------------0-----------------------0-----------------------------
A---0-------0-0h2---4---5-----------0-2h4---4-2---0-------------0-------
G-----0---------------------------0-----------------0---------0---------
D-------4-----------------------------------------------4---4-----------
A-------------------0-0-x-0-0-0-----------------------------------------
D---0-0-x-0-0-0-x---------------x---2-2-x---2-2-x---5-5-x-5-5-5-x-------


D-----------------------------------------------------------------------
A---------------0-------------------------------------------------------
G---------------x-------------------------------------------------------
D---0-------0h2-2h4-4-4h5-4\2-0-0---------------------------------------
A-------------------0-0-x-0-----x---------------------------------------
D---0-0-x-0-0---------------------2-------------------------------------


D-------------------0-----------0---------------------------------------
A-----------------------7-----------7-\-5-------------------------------
G---------------------------6-------------------------------------------
D-------------0-0h2-----------------------------------------------------
A-----------------------------------------------------------------------
D---2-2-x-2-2-2-x---5-----x-----5-----x---------------------------------