20140407

BOYCE AVENUE DEMONS TAB (ACOUSTIC GUITAR TAB)


Imagine Dragons - Demons acoustic cover by Boyce Avenue and Jennel Garcia
A special guitar tuning (CGCFBC) gives this unique sound
Download the TAB under the video



IMAGINE DRAGONS DEMONS ACOUSTIC TAB

PDF + GUITAR PRO >>

(Special tuning: CGCFBC)

Part 1

c-----------------------------------------------------------------------
B-1---------------3---------------5---------------6---------------------
F-2---------------2---------------4---------------4---------------------
C-0---------------------------------------------------------------------
G-----------------0---------------2-------------------------------------
C-------------------------------------------------5---------------------


c-----------------------------------------------------------------------
B-1---------------3---------------5---------------6---------------------
F-2---------------2---------------4---------------4---------------------
C-0---------------------------------------------------------------------
G-----------------0---------------2-------------------------------------
C-------------------------------------------------5---------------------



Part 2

c---0-------------------0-----------0-------------------0---------------
B-----0---------------0-----0---------0---------------0-----0-----------
F-------2-----------2---------2---------4-----------4---------2---------
C-0---------------------------------------------------------------------
G-----------------0---------------2-------------------------------------
C-------------------------------------------------5---------------------



c---0-------------------0-----------0-------------------0---------------
B-----0---------------0-----0---------0---------------0-----------------
F-------2-----------2---------2---------4-----------4-------------------
C-0---------------------------------------------------------------------
G-----------------0---------------2-------------------------------------
C-------------------------------------------------5---------------------


Part 3

c-0---------------0---------------0---------------0---------------------
B-1---------------0---------------5---------------6---------------------
F-2---------------2---------------4---------------4---------------------
C-0---------------2---------------0---------------0---------------------
G-0---------------0---------------2---------------x---------------------
C-0-----------------------------------------------5---------------------


c-0---------------0---------------0---------------0---------------------
B-1---------------0---------------5---------------6---------------------
F-2---------------2---------------4---------------4---------------------
C-0---------------2---------------0---------------0---------------------
G-0---------------0---------------2---------------x---------------------
C-0-----------------------------------------------5---------------------


Part 4

c-----------------------------------------------------------0-----------
B-1---------------3---------------5---------------6-----------0---------
F-2---------------2---------------4---------------4---------------------
C-0---------------------------------------------------------------------
G-----------------0---------------2-------------------------------------
C-------------------------------------------------5---------------------


c-----------------------------------------------------------------------
B-1---------------3---------------5---------------6---------------------
F-2---------------2---------------4---------------4---------------------
C-0---------------------------------------------------------------------
G-----------------0---------------2-------------------------------------
C-------------------------------------------------5---------------------

 etc ...