20140401

ERIC CLAPTON OLD LOVE SOLO TAB (ROYAL ALBERT HALL 1990)

Eric Clapton plays Old Love live at Royal Albert Hall in 1990 (24 Nights)
There is a guitar solo at 4:30 and another great one from 8:44 till the end
Download the TAB of these solos below



ERIC CLAPTON OLD LOVE SOLO TAB


Solo ~ 4:30

e-----------------------------------------------------------------------
B-15(17)---------------~~~~~--------------------------------------------
G-----------------------------------------------------------------------
D-----------------------------------------------------------------------
A-----------------------------------------------------------------------
E-----------------------------------------------------------------------


e-----------------------------------------------------------------------
B-(17)(15)p13-15.--15.--15.--15.--15(17)--------(15)p13-----------------
G-------------------------------------------------------14-14-14--\\\---
D-----------------------------------------------------------------------
A-----------------------------------------------------------------------
E-----------------------------------------------------------------------


e-----------------------------------------------------------------------
B-13---15---13h15p13-12---13---12h13p12---------------------------------
G---------------------------------------14-12-14-12---------------------
D---------------------------------------------------14\12p10------------
A------------------------------------------------------------12-12~-----
E-----------------------------------------------------------------------



e-----------------------------------------------------------------------
B-----------------------------13-12~------------------------------------
G-----------------------------------------------------------------------
D-10.----------------------14-------------------------------------------
A-----------------------------------------------------------------------
E-----------------------------------------------------------------------


e-----------------------------------------------------------------------
B----15p13--------15/17-15h17-15h17p15p13-15-13-15p13-------------------
G-----------------------------------------------------14-12-14.--14~----
D-14-----------14-------------------------------------------------------
A-----------------------------------------------------------------------
E-----------------------------------------------------------------------


e-----------------------------------------------------------------------
B----13-15-13-15h17p15-15-15h17p15-15-15h17p15-15-15h17p15-15-----------
G-14--------------------------------------------------------------------
D-----------------------------------------------------------------------
A-----------------------------------------------------------------------
E-----------------------------------------------------------------------


e-----------------------------------------------------------------------
B-15h17p15-15-15h17p15-15-15h17p15-15-15h17p15-15-15h17p15-15-15-17(20)~
G-----------------------------------------------------------------------
D-----------------------------------------------------------------------
A-----------------------------------------------------------------------
E-----------------------------------------------------------------------


e-----------------------------------------------------------------------
B-17(20)~---------------------------------------------------------------
G-----------------------------------------------------------------------
D-----------------------------------------------------------------------
A-----------------------------------------------------------------------
E-----------------------------------------------------------------------


e-----------------------------------------------------------------------
B-----15-17-15h17p15----15----------------------------------------------
G--17----------------17----17-14.--14-17----14-17-14h17p14----14-14~----
D----------------------------------------17----------------17-----------
A-----------------------------------------------------------------------
E-----------------------------------------------------------------------


e-----------------------------------------------------------------------
B-----------------------------------------------------------------------
G-17---\\\--------------------------------------------------------------
D-----------------------------------------------------------------------
A-----------------------------------------------------------------------
E-----------------------------------------------------------------------