20160823

DAVID LOCKE WONDERFUL TONIGHT TAB (INSTRUMENTAL ELECTRIC GUITAR TAB)


Eric Clapton - Wonderful Tonight instrumental electric guitar cover by David Locke
Nice and smooth electric guitar solo played in standard tuning
Download the TAB under the video



WONDERFUL TONIGHT ELECTRIC GUITAR TAB

GP5 + GP6 + PDF >>

Part 1

e-----------------------------------------------------------------------
B-------10(12)-(10)p8.-10~------10(12)-(10)p8.--------------------------
G-----7----------------------------------------9~-----------------------
D-----------------------------------------------------------------------
A-----------------------------------------------------------------------
E-----------------------------------------------------------------------


e-----------------------------------------------------------------------
B------10(12)-(10)p8.-10~----12~--/13~---15(17)---(15)~---\-------------
G---7.------------------------------------------------------------------
D-----------------------------------------------------------------------
A-----------------------------------------------------------------------
E-----------------------------------------------------------------------


e-----------------------------------------------------------------------
B------10(12)-(10)p8.-10~---------10(12)-(10)p8.------------------------
G------------------------------7.----------------9~---------------------
D-----------------------------------------------------------------------
A-----------------------------------------------------------------------
E-----------------------------------------------------------------------



e-----------------------------------------------------------------------
B------10(12)-(10)p8.-10~----12~--/13.--15(17)---(15)~------------------
G---7.------------------------------------------------------------------
D-----------------------------------------------------------------------
A-----------------------------------------------------------------------
E-----------------------------------------------------------------------


e-----------------------------------------------------------------------
B-----------------------------------------------------------------------
G--------4h5p4-----7~------\-------4h5p4--------------------------------
D--------------7.------------------------7/9---\7.--7~-------\5.--------
A------5-------------------------5-------x------------------------------
E-----------------------------------------------------------------------
       x                         x

e-----------------------------------------------------------------------
B-----------------------------------------------------------------------
G--------4h5p4-----7~-----\9.------4h5p4--------------------------------
D--------------7.------------------------7/9---\7.--7~-------\5.--------
A------5-------------------------5-------x------------------------------
E-----------------------------------------------------------------------
       x                         x

e-----------------------------------------------------------------------
B------/5-5.-5----------------------------------------------------------
G--------------7.-------------------4p2-4.-4/7--------------------------
D------------------7~--------5h7.---x----------5~-----------------------
A----------------------------x------------------------------------------
E-----------------------------------------------------------------------

  
e-----------------------------------------------------------------------
B-----------------------------------------------------------------------
G--------4-7-5~-------5~--p4--------------------------------------------
D----------------------------7.-7.--9\7p5.------5~----------------------
A------5------------------------------------5h7-------------------------
E-----------------------------------------------------------------------
       x

 etc ...