20180409

INFINITE BACK FINGERSTYLE GUITAR TAB


Infinite - Back fingerstyle guitar cover played by Gabriella Quevedo
It's arranged in 1 step down tuning and no Capo is used
Download the TAB under the video



INFINITE BACK FINGERSTYLE TAB

GP5 + GP6 + PDF >>

 - 1 step down tuning -
Part 1

d------3-p2-----3-p2-----3-----3-p2-----3-p2-----3----------------------
A---0--------0--------0-----1--------1--------1-------------------------
F-----------------------------------------------------------------------
C-----------------------------------------------------------------------
G---------------------------0-----------------0-------------------------
D---0-----------------0-------------------------------------------------


d------3-p2-----3-p2-----3-----2-p0-----2-p0-----2----------------------
A---1--------1--------1-----0--------0--------0-------------------------
F-----------------------------------------------------------------------
C---0-----------------0-------------------------------------------------
G-----------------------------------------------------------------------
D---------------------------3-----------------3-------------------------


d------2-p0-----2-p0-----2-----2-p0-----2-p0-----2----------------------
A---0--------0--------0-------------------------------------------------
F---------------------------3--------3--------3-------------------------
C-----------------------------------------------------------------------
G---3-----------------3-------------------------------------------------
D---------------------------2-----------------2-------------------------



d------2--------2--------2--2-------------------------------------------
A---------5--------5--------4--------------0----------------------------
F------------4--------4-----4-----------------2-p0----------------------
C-----------------------------------------------------------------------
G---2-----------------------2-------------------------------------------
D-----------------------------------------------------------------------


Part 2

d------3-p2-----3--------------3-\2-----3-------------------------------
A---0--------0-----0--------0--1-----1-----0----------------------------
F---------------------2-p0-----2--------------2-p0----------------------
C---------------2--------------2--------------2-------------------------
G------2--------------------0-----------0-------------------------------
D---0-------------------------------------------------------------------


d------3-p2-----3--------------3-p2-----3-------------------------------
A---0--1-----1-----0--------0--------0-----0----------------------------
F---2--2--------------2-p0-----2--------------2-p0----------------------
C---0-----------0-----0-----------------------0-------------------------
G-----------------------------------------------------------------------
D---------------------------3-----------3-------------------------------


d------------------------------------------2----------------------------
A------------------0-----------------0----------------------------------
F------------0--------2-p0--3~-------------------0----------------------
C---2-------------------------------------------------------------------
G---3-----------3-------------------------------------------------------
D---------------------------2-----------2-----2-------------------------


d-----------------------------------------------------------------------
A------------------------------0-----------0----------------------------
F------------------------------------2--------2-p0----------------------
C---4-----4-/5--4--2.----1----------------------------------------------
G---2-----------2-----------2-----------2-------------------------------
D-----------------------------------------------------------------------






DOWNLOAD THIS TAB IN GUITAR PRO



  • click 'Free Download'
  • add your e-mail address
  • you will get an e-mail with your download links (in a few seconds)
  • download the Guitar Pro 6 tab + GP5 + PDF for free
  • and that's all ...


Guitar Pro: a complete workshop for guitarists at an affordable price