20180421

PLAYING FOR CHANGE COTTON FIELDS ACOUSTIC GUITAR SOLO TAB

Amazing musicians from all over the world play Cotton Fields by CCR
There is a nice acoustic solo played by Vinnie Caggiano around 1:38
Download this solo tab under the video



COTTON FIELDS ACOUSTIC SOLO TAB

GP5 + GP6 + PDF >>

(~ 1:40)

e-----------8p7p5-7--5--------------------------------------------------
B----------------------7--5---------------------------------------------
G--------------------------6p5-\4---------------------------------------
D---------------------------------7--4-7--4-----------------------------
A-----------------------------------------------------------------------
E-----------------------------------------------------------------------


e--------------------------------5-8p7p5----5---------------------------
B---------------------------5-7----------7------------------------------
G-----------4-4h5p4-4--5/6----------------------------------------------
D------4-7---------7----------------------------------------------------
A---5-------------------------------------------------------------------
E-----------------------------------------------------------------------


e---7--x--8--x--9--x--10-10/12-------11--x--8/9-------------------------
B-----------------------------------------------10-10~------------------
G-----------------------------------------------------------------------
D-----------------------------------------------------------------------
A-----------------------------------------------------------------------
E-----------------------------------------------------------------------



e--------------------5----5---------------------------------------------
B---------------------------7.------5-----------------------------------
G--------9--x--7-5h6-------------7----6.--------------------------------
D-----------------------------------------------------------------------
A-----------------------------------------------------------------------
E-----------------------------------------------------------------------




DOWNLOAD THIS TAB IN GUITAR PRO



  • click 'Free Download'
  • add your e-mail address
  • you will get an e-mail with your download links (in a few seconds)
  • download the Guitar Pro 6 tab + GP5 + PDF for free
  • and that's all ...


Guitar Pro: a complete workshop for guitarists at an affordable price