20180630

TULSA TIME SOLO TAB (LIVE AT CROSSROADS GUITAR FESTIVAL 2007)

Eric Clapton, Sheryl Crow, Vince Gill and Albert Lee perform Tulsa Time
Live version recorded at Crossroads Guitar Festival 2007
Vince Gill's solo starts around 3:35 in this video
Eric Clapton's solo starts at 4:40
Download the TAB below


VINCE GILL TULSA TIME SOLO TAB

GP5 + GP6 + PDF >>

 ~ 3:30

e-----------------------------------------------------------------------
B-----------------------------------------------------------------------
G---7(9)-------(7)---(9)(7)(9)(7)--p5---5~------------------------------
D-----------------------------------------------------------------------
A-----------------------------------------------------------------------
E-----------------------------------------------------------------------


e--------------------------------------------8-------10(11)---(10)--p8.-
B---8(10)-------8p7p6----------------------------8---x------------------
G-----------------------8'--5---5~------/9------------------------------
D-----------------------------7-----------------------------------------
A-----------------------------------------------------------------------
E-----------------------------------------------------------------------


e-----------------------------------------------------------------------
B---10(11)(10)(11)(10)p8.--10(11)---10.--10--p8---8~-------\------------
G---x-------------------------------------------------------------------
D-----------------------------------------------------------------------
A-----------------------------------------------------------------------
E-----------------------------------------------------------------------



e-----------------------------------------------------------------------
B-------8-------8~----------11(13)------10(12).--8-------8~------8~-----
G--/9-------9-----------9---x------------------------9------------------
D-----------------------------------------------------------------------
A-----------------------------------------------------------------------
E-----------------------------------------------------------------------
            x           x                            x

e----------------8------------------------------------------------------
B----11(13)----------10(11)(10)p8--8---------8--------------------------
G----x---------------x-----------10-10(12).----10(12)(10)p8--10-8-------
D----------------------------------------------------------10----10~----
A-----------------------------------------------------------------------
E-----------------------------------------------------------------------


e---8---11'------11'--.---11'--8.------11'------11'--11'--11'--11'--8.--
B---8---10'------10'--.---10'--8.------10'------10'--10'--10'--10'--8.--
G-----------------------------------------------------------------------
D-----------------------------------------------------------------------
A-----------------------------------------------------------------------
E-----------------------------------------------------------------------


e----------------8------------8---10p9p8------------8-------------------
B---11(13)~----------11(13)----------------11(13)-----------------------
G---x-------------------------------------------------------------------
D-----------------------------------------------------------------------
A-----------------------------------------------------------------------
E-----------------------------------------------------------------------


e----------------------------------------------------------13--h15.-----
B---11(13)---(11)p8.----11~----p8\-------13---15(17)--------------------
G----------------------------------/14----------------------------------
D-----------------------------------------------------------------------
A-----------------------------------------------------------------------
E-----------------------------------------------------------------------


e---17(18)-------(17)---15\13h15---14p13--------------------------------
B---x-----------------------------------15---14-13----------------------
G-------------------------------------------------15'--12--12~------11\-
D--------------------------------------------------------14-------------
A-----------------------------------------------------------------------
E-----------------------------------------------------------------------


e--------8-------11(13)------11'--8------------8~~~---------------------
B------------8------------------------11(13)----------------------------
G---/9------------------------------------------------------------------
D-----------------------------------------------------------------------
A-----------------------------------------------------------------------
E-----------------------------------------------------------------------






DOWNLOAD THIS TAB IN GUITAR PRO



  • click 'Free Download'
  • add your e-mail address
  • you will get an e-mail with your download links (in a few seconds)
  • download the Guitar Pro 6 tab + GP5 + PDF for free
  • and that's all ...