20190606

ERIC CLAPTON TULSA TIME SOLO TAB (LIVE AT CROSSROADS)


Eric Clapton, Sheryl Crow, Vince Gill and Albert Lee perform Tulsa Time
Live version recorded at Crossroads Guitar Festival 2007
Vince Gill's solo starts around 3:35 in this video
Eric Clapton's solo starts at 4:40
Download the TAB below


ERIC CLAPTON TULSA TIME SOLO TAB

GP5 + GP6 + PDF >>

 ~ 4:40

e---------------------------13------------------------------------------
B----------15(17)--------------(17)(15)-13~~~---------------------------
G----------x------------------------------------------------------------
D-----------------------------------------------------------------------
A-----------------------------------------------------------------------
E-----------------------------------------------------------------------


e-----------------------------------------------------------------------
B-----15(17).-15.-13.---------------------------------------------------
G---------------------15(16)-12-----12~---\----/(19).-------------------
D---------------------x---------14.-------------------------------------
A-----------------------------------------------------------------------
E-----------------------------------------------------------------------


e--------3----------------------7-6-5-3---3-----------------------------
B------3---6-3h5p3------------------------------13.---------------------
G---3h4-----------5-3h4------/7-7-6-5-4---4-/14-------------------------
D-------------------3---5.----------------------------------------------
A-----------------------------------------------------------------------
E-----------------------------------------------------------------------



e----------------------------11'-8.-11'-8--11'-8--11'-11'---8~----------
B-----13-11'-----------------x------x----8-x----8-----10'---x-----------
G-----x--------\10-8'---------------------------------------------------
D---------------------10------------------------------------------------
A------------------------10.--------------------------------------------
E-----------------------------------------------------------------------


e------8.-11(12)-----8--------------------------------------------------
B---10-----------------11(13)-8-----------------------------------------
G-------------------------------10-8h9----------------------------------
D--------------------------------------10----8.-------------------------
A-----------------------------------------10----------------------------
E-----------------------------------------------------------------------


e-----------------------------------------------------------------------
B-----------------------------------------------------------------------
G-----------------------------------------------------------------------
D-----10-10-10-10/12-8-10-8h9-------------------------------------------
A-----------------------------10~----\---/(17).-----/(19).--------------
E-----------------------------------------------------------------------


e------------------------------------8-10-------------------------------
B-----11'-8-11'----8~-8~.---8-11(13)------11(13)-8~---------------------
G-----x------------x--x-----x-------------------------------------------
D-----------------------------------------------------------------------
A-----------------------------------------------------------------------
E-----------------------------------------------------------------------


e-----10(12)-10-8-------------------------------------------------------
B---8-------------8-----------------------------------------------------
G-------------------10-8h9----------------------------------------------
D--------------------------10p8-10~-------------------------------------
A-----------------------------------------------------------------------
E-----------------------------------------------------------------------


e-----------------------------------------------------------------------
B-----------------------------------------------------------------------
G-----------------------------------------------------------------------
D------8----------------------------------------------------------------
A--------10-10\8-6'-----------------------------------------------------
E-------------------8-x-------------------------------------------------