20180909

INFINITE DESTINY FINGERSTYLE TAB (GABRIELLA QUEVEDO)

Infinite - Destiny fingerstyle guitar cover played by Gabriella Quevedo
It's arranged in a special tuning: FAEGBE
Download the TAB under the video



INFINITE DESTINY FINGERSTYLE TAB

GP5 + GP6 + PDF >>

Part 1

e---0.--0.--0.--0.--0.--0.--0.--0.--0.--0.--0.--0.--0.--0.--0.--0.------
B---1.--1.--1.--1.--1.--1.--1.--1.--1.--1.--1.--1.--1.--1.--1.--1.------
G---2.--2.--2.--2.--2.--2.--2.--2.--2.--2.--2.--2.--2.--2.--2.--2.------
E-----------------------------------------------------------------------
A---0-------------------------------------------------------------------
F-------------------3---------------2---------------1-------------------


e---0.--0.--0.--0.--0.--0.--0.--0.--0.--0.--0.--0.--0.--0.--0.--0-------
B---3.--3.--3.--3.--1.--1.--1.--1.--1.--1.--1.--1.--1.--1.--1.--1-------
G---2.--2.--2.--2.--2.--2.--2.--2.--2.--2.--2.--2.--2.--2.--2.--2-------
E-----------------------------------------------------------------------
A-----------------------------------------------------------------------
F---0---------------1---------------2---------------3-------------------


e-----------------------------------------------0-----------------------
B-----------0-1-0-----------0-3-1-----------3-1-----3---1---3-----------
G-------2---------------2---------------2---2-------2---2-------2-------
E-----0---------------0---------------0---------------0-----------------
A---0-----0-------------------------------------------------------------
F-------------------3-----3---------2-----2-------1---------------------



e---0---------------0-----------------0.--0.--0.--0.--0.--0.--0.--0-----
B-------3---1---0-------3---1---0-----1.--1.--1.--1.--1.--1.--1.--1-----
G-------------------------------------2.--2.--2.--2.--2.--2.--2.--2-----
E-----0-------0---0---0-------0---0-------------------------------------
A-----------------------------------------------------------------------
F---0-----0---------1-----1---------2---------------3-------------------


Part 2

e-------0---0---0---0---0-------0---0-------------0---------0-----------
B-------1---1---------------3-----------3---1---3-----------1-----------
G------2----2---------------2---------------2-----------2---2----- etc..
E-----------0-----------------------------------------------0-----------
A---0-------x-------0-------x-------------------------------------------
F-----------------------------------3-------x-------3-------x---3-------






DOWNLOAD THIS TAB IN GUITAR PRO



  • click 'Free Download'
  • add your e-mail address
  • you will get an e-mail with your download links (in a few seconds)
  • download the Guitar Pro 6 tab + GP5 + PDF for free
  • and that's all ...


Guitar Pro: a complete workshop for guitarists at an affordable price