20190810

BOYCE AVENUE THE CLIMB TAB (MILEY CYRUS ACOUSTIC COVER)


Miley Cyrus - The Climb acoustic cover played and arranged by Boyce Avenue
Alejandro uses a 12 string guitar in a special tuning (DbAbDbAbDbDb)
Download the TAB under the video



BOYCE AVENUE THE CLIMB ACOUSTIC TAB

GP5 + GP6 + PDF >>

Intro

Db---------------7-----------------------7------------------------------
Db---------0--------0-----0--------0--------0-----0---------------------
Ab------0-----0--------0--------0-----0--------0------------------------
Db----------------------------------------------------------------------
Ab----------------------------------------------------------------------
Db---0-----------------------0------------------------------------------


Verse

Db---------------7-----------------------7------------------------------
Db---------0--------0-----0--------0--------0-----0---------------------
Ab------0-----0--------0--------0-----0--------0------------------------
Db----------------------------------------------------------------------
Ab----------------------------------------------------------------------
Db---0-----------------------0------------------------------------------


Db---------------4-----------------------2------------------------------
Db---------0--------0-----0--------0--------0-----0---------------------
Ab------0-----0--------0--------0-----0--------0------------------------
Db---5-----------------------2------------------------------------------
Ab----------------------------------------------------------------------
Db----------------------------------------------------------------------



Db---------------7-----------------------7------------------------------
Db---------0--------0-----0--------0--------0-----0---------------------
Ab------0-----0--------0--------0-----0--------0------------------------
Db----------------------------------------------------------------------
Ab----------------------------------------------------------------------
Db---0-----------------------0------------------------------------------


Db---------------4-----------------------2------------------------------
Db---------0--------0-----0--------0------------------------------------
Ab------0-----0--------0--------0-----0---------------------------------
Db---5-----------------------2------------------------------------------
Ab----------------------------------------------------------------------
Db----------------------------------------------------------------------


Pre-Chorus

Db----------------------------------------------------------------------
Db---------------0-----------------------0------------------------------
Ab---------4--------4-----4--------4--------4-----0---------------------
Db------4-----4--------4--------2-----2--------2------------------------
Ab---2-----------------------0------------------------------------------
Db----------------------------------------------------------------------


Db----------------------------------------------------------------------
Db---------------0-----------------------0------------------------------
Ab---------0--------0-----0--------0------------------------------------
Db------0-----0--------0--------5-----5---------------------------------
Ab----------------------------------------------------------------------
Db---5-----------------------2------------------------------------------

 etc ...






DOWNLOAD THIS TAB IN GUITAR PRO



  • click 'Free Download'
  • add your e-mail address
  • you will get an e-mail with your download links (in a few seconds)
  • download the Guitar Pro 6 tab + GP5 + PDF for free
  • and that's all ...