20191224

AND I LOVE HER FINGERSTYLE TAB (MICHAEL CHAPDELAINE)


The Beatles - And I Love Her fingerstyle guitar cover by Michael Chapdelaine
It's arranged in CADGBE tuning (!!!) with Capo on the 4th fret
Download the TAB under the video



MICHAEL CHAPDELAINE AND I LOVE HER TAB

PDF + GUITAR PRO >>

Intro

e-----------------1--1.-1-----1-----1-----1--1--1-----------------------
B-----------------3--3.-3-----3-----3-----3--3--3-----------------------
G-----------------2--2.-2-----2-----2-----2--2--2-----------------------
D-----------------0--0.-0-----------------0--0--------------------------
A--------3--2--0-----x--x--0-----x-----0-----x--------------------------
C-----7-----------------------------------------x-----------------------


e------------------0--0.-0-----0-----0-----0--0--0----------------------
B------------------1--1.-1-----1-----1-----1--1--1----------------------
G------------------0--0.-0-----0-----0-----0--0--0----------------------
D------------------2--2.-2-----2-----2-----2--2--2----------------------
A---------3--2--0--------------------------0-----0----------------------
C---x--7--------------x--x--0-----x-----0-----x--x----------------------


Verse

e-----------------------------------------------------------------------
B--------------------------------------------------1--------1-----------
G------------------------------------3/4----p2--------------2-----------
D---------------------0-----2--3-------------------------2--------------
A---------3--2----------------------------0-----x-----0-----x-----------
C---x--7--------2--------2--------x----------------------------0--------



e-----------------------------------------------0-----------------------
B--------------------------------------1--------1-----------------------
G------------------------3/4-----p2-------------------------------------
D------0--------2--3-------------------------2--------------------------
A-----------------------------0-----x-----0-----x-----------------------
C---2-----x--2--------x----------------------------0--------------------


e-----------------------------------------------0-----------------------
B--------------------------------------1--------1-----------------------
G------------------------3/4-----p2---------2---------------------------
D------0--------2--3-------------------------2--------------------------
A-----------------------------0-----x-----0-----x-----------------------
C---2-----x--2--------x----------------------------0--------------------


e-----------------------------------------------------------------------
B------0-h1-------------------------------------------------------------
G---------------2-------------------------------------------------------
D------------------3-----2----p0--0--0--0.------------------------------
A------------0--------3-----------2--2--2.------------------------------
C---5-----x-----------------7-----7--7--7.------------------------------

 etc ...