20200907

STUART MCCALLUM - SALTBURN TAB


Stuart McCallum - Saltburn is a very nice relaxing acoustic guitar song
It's in DADGAD tuning with a CAPO on the 2nd fret
Download the TAB under the video



STUART MCCALLUM SALTBURN TAB

PDF + GUITAR PRO >>


Part 1

D---------0-----7~----------0-----------------0-----9--\7---4\2-0-------
A---------------------------------0---------0---------------------------
G-------------0---------------------------0-----------------------------
D---4-------4---------------------------4-------------------------------
A-----------------------------------------------------------------------
D---0-------------------------------0-----------------------------------


D-------------0--------------------------0------------------------0-----
A---------------0-----------0--------------0---h2-----2p0---------------
G-----------------------------0--------------0------------0-------------
D-------0h2/4-------2p0-------------------------------------0h2/4-------
A---2-------------------0h2-----2p0-------------------------------------
D-----------------------------------h5----------------------------------


D---------0-----7~----------0-----------------0-----9--\7---4\2-0-------
A---------------------------------0---------0---------------------------
G-------------0---------------------------0-----------------------------
D-----------4---------------------------4-------------------------------
A-----------------------------------------------------------------------
D---0-------------------------------0-----------------------------------


D-------------0--------------------------0------------0-----------------
A---------------0-----------0--------------0---h2-----0-----------------
G-----------------------------0--------------0--------0-----------------
D-------0h2/4-------2p0-------------------------------------------------
A---2-------------------0h2-----2p0-------------------------------------
D-----------------------------------h5----------------------------------

 etc ...