20201009

JOSÉ GONZALEZ - HEARTBEATS TAB (LIVE)


José Gonzalez plays Heartbeats live in Dingle - relaxing acoustic guitar song
It's in DADF#Be tuning (tune down the low E string and the G strings)
Capo on the 1st fret



JOSÉ GONZALEZ - HEARTBEATS TAB

PDF + GUITAR PRO >>


Intro

e-----------------------------------------------------------------------
B-------------------------------------------------------------0---------
F#----------------3-----------3-------------------3---------------------
D-----0-------0-----------0-------0---0-------0-----------0-------0-----
A-------4h5-5---5---4h5-5---5---0-------4h5-5---5---4h5-5---5---0-------
D---0-------------------------------0-----------------------------------


e-----------------------------------------------------------------------
B-------------0---------------------------------------------------------
F#----------------------------0---------------0---------------0---------
D---------4-------4-------4-------0-------0-------0-------0-------0-----
A---2---2---2---2---0h2-2---0-----------5---5---5---4h5-5---5---0-------
D-------------------------------4---5-----------------------------------


e-----------------------------------------------------------------------
B-------------------------------------------------------------0---------
F#----------------3-----------3-------------------3---------------------
D-----0-------0-----------0-------0---0-------0-----------0-------0-----
A-------4h5-5---5---4h5-5---5---0-------4h5-5---5---4h5-5---5---0-------
D---0-------------------------------0-----------------------------------


e-------------0---------------------------------------------------------
B-----------------------------------------------------------------------
F#----------------------------0---------------0---------------0---------
D---------4-------4-------4-------0-------0-------0-------0-------0-----
A---2---2---2---2---0h2-2---0-----------5---5---5---4h5-5---5---5-------
D-------------------------------4---5-----------------------------------


e-----------------------------------------------------------------------
B-----------------------------------------------------------------------
F#------------0---------------0-----------------------------------------
D---------0-------0-------0-------0-------------------------------------
A---5---5---5---5---4h5-5---5---0---------------------------------------
D-----------------------------------------------------------------------


Verse

e-----------------------------------------------------------------------
B-------------------------------------------------------------0---------
F#------------3---------------3---------------3-------------------------
D-----0-----------0-------0-------0---0-----------0-------0-------0-----
A-------4h5-5---5---4h5-5---5---0-------4h5-5---5---4h5-5---5---0-------
D---0-------------------------------0-----------------------------------


e-----------------------------------------------------------------------
B-------------0---------------------------------------------------------
F#----------------------------0---------------0---------------0---------
D---------4-------4-------4-------0-------0-------0-------0-------0-----
A---2---2---2---2---0h2-2---0-----------5---5---5---4h5-5---5---0-------
D-------------------------------4---5-----------------------------------

 etc ...