20210318

PHIL COOK - FRAZEE TAB (LIVE)


Phil Cook & His Feat - Frazee live at The Farm (Hillsborough, NC)
It's in Open D tuning with CAPO on the 2nd fret
Download the TAB under the video



PHIL COOK - FRAZEE TAB

PDF + GUITAR PRO >>

Part 1

D---7-----------9.--7-------4-------4----------0----0-------------------
A-----------------------------------------------------------------------
Gb--8-----------8.--7-------6-------5----------5----4-------------------
D-------0-------0.------0-------0-------0-------0-------0-------0-------
A-----------------------------------------------------------------------
D---0-------0-------0-------0-------0-------0-------0-------0-----------


D---7----------9----7---------4-------0---------------------------------
A-----------------------------------------------------1-----------------
Gb--8----------8----7-------5/6-------5---------------1-----------------
D-------0-------0.------0.--------0-------0-------0-------0-------0-----
A-----------------------------------------------------------------------
D---0-------0-------0---------0-------0-------0-------0-------0---------


D----7----------9-\--7-------4---------4----------4------0--------------
A---------------------------------------------7-------------------------
Gb-1/8----------8-\--7-------6------6\5---5-----------5\4---------------
D--------0-------0-------0-------0---------0-------0---------0-------0--
A-----------------------------------------------------------------------
D----0-------0---------------0---------0-------0---------0-------0------


D---------0---4----0h2--------0----0---------------0--------------------
A---0h2------------------0h2------------------2-------------------------
Gb-0-h2-----------0---1-----------0----------0----0---------------------
D------0-------0----h2---------2-------0-------3-------4-------0--------
A------------------0----------------------------------------------------
D---0h2----2-----------------------0-------0-------0-------0------------

 etc ...