20210611

PART OF YOUR WORLD FINGERSTYLE TAB (KANAHO)


The Little Mermaid - Part of Your World acoustic fingerstyle guitar cover by Kanaho
It's arranged in DADGAD tuning with Capo on the 3rd fret
Download the TAB under the video



ALAN MENKEN PART OF YOUR WORLD ACOUSTIC FINGERSTYLE TAB

GUITAR PRO + PDF >>

Intro

d---------0-------0-------2-------2-------0-------0-------2-------2-----
A-----0h2-----0h2-----2h4-----2h4-----0h2-----0h2-----2h4-----2h4-------
G---0-------0-------2-------2-------0-------0-------2-------2-----------
D-----------0---------------2---------------0---------------2-----------
A-------------------0-------------------------------0-------------------
D---5-------------------------------5-----------------------------------


d------------------------------------2----------------------------------
A---2--4--5--5--------------4-/5----------------------------------------
G---------0-----------0-----------2-----------2-------------------------
D------0-----------0-----------2-----------2----------------------------
A---------------2-----------0-----------4-------------------------------
D---5-------------------------------------------------------------------


d------------------------------------2--2-------------------------------
A---2---4----5--------4--5--4---5---------------------------------------
G---------0-----------0-----------2-----------2-------------------------
D------0-----------0-----------2-----------2----------------------------
A---------------2-----------0-----------4-------------------------------
D---5-------------------------------------------------------------------


d-----------2--2-------2--0-----------0---2---4-------------------------
A---4---5----------5---------------0------------------------------------
G---2-------------------------------------------------------------------
D--------------2-------------0--4---------------------------------------
A-------------------------2---------------------------------------------
D---4-------------------------------------------------------------------

 etc ...