20220209

COSTAS GRIGOREAS - PERIBANOU CLASSICAL GUITAR TAB


Costas Grigoreas plays Peribanou by Manos Hadjidakis on classical guitar
Standard tuning and the 5/4 will make you swing like a little boat on the sea
Download the TAB under the video



PERIBANOU CLASSICAL GUITAR TAB

PDF + GUITAR PRO >>


e-------7-----------7-------5.--5---------------------------------------
B---5~------5---------------------------8p6-----------------------------
G---------------7-------5~----------7-----------------------------------
D-----------------------------------------------------------------------
A---0-------------------0-----------------------------------------------
E---------------0-------------------0-----------------------------------


e-------7-----------7-------5.--5~------5-------------------------------
B---5~------5-----------------------------------------------------------
G---------------7-------5-----------------------------------------------
D-----------------------------------------------------------------------
A---0-------------------0-----------------------------------------------
E---------------0-------------------0-----------------------------------


e-------7-----------7-------5.--5---------------7-----------7-----------
B---5~------5---------------------------8p6-5~------5-------------------
G---------------7-------5~----------7-------------------7---------------
D-----------------------------------------------------------------------
A---0-------------------0-------------------0---------------------------
E---------------0-------------------0-------------------0---------------


e-------8---8---7---8---10~------8---7----------------------------------
B-------5---5---5---5--------0-----------10-----------------------------
G-------5---5---5---5---------------------------------------------------
D-----------------------------------------------------------------------
A---0-------------------0-----------------------------------------------
E-----------------------------------------------------------------------


e-------------------5---------------------------------------------------
B---8~----------6h8-----8~----------------------------------------------
G-------0---0---------------0---0-------0-------------------------------
D-----------------------------------------------------------------------
A-----------------------------------------------------------------------
E---0-------------------0-----------0-----------------------------------

 etc ...