20130711

SUNGMIN LEE BANMAL SONG TAB (FINGERSTYLE GUITAR TAB)

Jung Yong Hwa - Banmal Song acoustic fingerstyle guitar cover by Sungmin Lee
It's played in Open G tuning (DGDGBD) and Alex Chung plays a cool solo at the end
Download the TAB under the video



BANMAL SONG FINGERSTYLE TAB

GP5 + GP6 + PDF >>

Part 1

d--------5---7---7/9----------------------------------------------------
B--------------------------------------8--------------------------------
G---/4-------5---------7---7---7------------7---------------------------
D--------------------------9----------------9---------------------------
G----------------0-------------0----------------0-----------------------
D-----------------------------------------------------------------------
                           x                x                          

                                
d---10/12-------------------------------5p4-----------------------------
B---------------------10------------------------------------------------
G-----------11-----------------11---0-----------------------------------
D----------------12-----------------------------------------------------
G-----------------------------------------------------------------------
D---0-----------------0-------------------------------------------------
                 x                  x                                  
               

d---5-------------------2-----------2h4---2---4---4/9-------------------
B-------3---3---3-----------3-------------------------------7----/8\7---
G-------4---4---4---------------4---------------------------------------
D-----------------------------------------------------------------------
G-----------------------------------------------------------------------
D---2---------------2-----------2---0-------------------0---------------
            x               x                 x                 x       



d---------------------------------0-----------7---5-------4h5p4p2---0---
B---5-----------5/7-------7---5-----------0-----------------------------
G-------5-----------------7---------------------------------------------
D-----------5-------------7---------------------------------------------
G---5-----------------5---------------4---------------------------------
D-----------------------------------------------------2-----------------
            x                 x               x                 x      


d-----------------------2-------------------7/9\7-----------12--\-------
B---1-----------------------1-------------------------------------------
G-------2---2---2---------------------------7/9\7-----------------------
D-------2---2---2-----------------------0-------------------------------
G---2---------------2---------------------------------------------------
D-----------------------------------0-----------------------------------
            x               x


Part 2
                                         
d-----------------------------------------------------------------------
B-----------0---0---0-------------------0-----------0-------------------
G-----------0-----------2---0---2-----------2-----------2---0---2-------
D-------0---------------------------------------------------------------
G---0---------------0---------------------------------------------------
D-----------------------------------4-----------4---4-------------------
            x               x               x               x          


d-------------------------------------------------------2---------------
B---------------------------------------------------------------0-------
G-------2-------2---2---1--h2p1---------1---1---------------2-----------
D-----------0-------------------2---------------------------------------
G-----------------------------------------------------------------------
D---3---------------3---------------2-----------2-----------------------
            x               x               x               x          


d-----------------------------------------------------------------------
B---1-------0---1-----------0---1-----------0---1-----------0---1-------
G-------2---------------2---------------2---------------2---------------
D-----------------------------------------------------------------------
G---2---------------2---------------1---------------1-------------------
D-----------------------------------------------------------------------
            x               x               x               x          


d-------------------------------------------5---2h4-------2h4p2p0-------
B-------1---1---0-------1---0-------------------------------------------
G-------0---0---0---------------2-------2---------------------------2---
D-----------------------------------------------------------------------
G---0---------------0---------------------------------------------------
D-----------------------------------0-----------------------------------
            x               x






DOWNLOAD THIS TAB IN GUITAR PRO



  • click 'Free Download'
  • add your e-mail address
  • you will get an e-mail with your download links (in a few seconds)
  • download the Guitar Pro 6 tab + GP5 + PDF for free
  • and that's all ...


Guitar Pro: a complete workshop for guitarists at an affordable price