20191216

TOM PETTY FULL GROWN BOY TAB (SOLO)


Tom Petty - Full Grown Boy guitar solo starts around 1:47 in the studio version
It's a nice clean solo in standard tuning
Download the TAB below



TOM PETTY FULL GROWN BOY SOLO TAB

GP5 + GP6 + PDF >>

 ~ 1:47

e-----------------------------------------------------------------------
B-----13---13~----------------------------------------------------------
G---14-----------------------h14-12---14~-------------------------------
D-----------------------------------------------------------------------
A-----------------------------------------------------------------------
E-----------------------------------------------------------------------


e-----------------------------------------------------------------------
B------------------------------------------------------------------10.--
G---10(12)-------10---------------------10-12-13/14\13p12p10--10h12-----
D----------------------------------10-12--------------------12----------
A------------------10h12~-----10/12-------------------------------------
E-----------------------------------------------------------------------


e-----10-12(13)(12)-10h12p10~-------------------------------------------
B---13-----------------------------13---11~-----------------------------
G-----------------------------------------------------------------------
D-----------------------------------------------------------------------
A-----------------------------------------------------------------------
E-----------------------------------------------------------------------



e---10-12.--13~----p10--------------------------------------------------
B---------------------13.----13(15).--13(15)---(13).--------------------
G-----------------------------------------------------------------------
D-----------------------------------------------------------------------
A-----------------------------------------------------------------------
E-----------------------------------------------------------------------


e---12(13).---12p10-----------------------------------------------------
B------------------13------------10.------------------------------------
G-----------------------12(14)---------(14)(12)p10h12~-----p10~---------
D-------------------------------------------------------------------12.-
A-----------------------------------------------------------------------
E-----------------------------------------------------------------------


e----------10-----------------------------------------------------------
B--------10--10---------------------------------------------------------
G---10-12------12p10-----------------10---------------------------------
D-------------------12p10--10---12--------10h12~------------------------
A------------------------12---------------------------------------------
E-----------------------------------------------------------------------







DOWNLOAD THIS SOLO TAB IN GUITAR PRO



  • click 'Free Download'
  • add your e-mail address
  • you will get an e-mail with your download links (in a few seconds)
  • download the Guitar Pro 6 tab + GP5 + PDF for free
  • and that's all ...