20210110

RODRIGO RODRIGUEZ - THE PRAYER CLASSICAL GUITAR TAB (LIVE)


Rodrigo Rodriguez plays The Prayer live in Prague (Czech Republic) 2007
Amazing classical guitar song in DGDGBe (Open G6) tuning
Download the TAB under the video



RODRIGO RODRIGUEZ - THE PRAYER TAB

PDF + GUITAR PRO >>

Part 1

e-------5---------------3-------------7~--7---------------5~------------
B---3-------------------0---------------------------------5-------------
G---------------0---2-----------------------------5---7-----------------
D-----------0---------------------------------5-------------------------
G-------0---------------------------------5-----------------------------
D-----------------------------------------------------------------------


e---3---3-------2-------------------------------------------------------
B-------------------1---5-------3\--1-----------1---0-------------------
G---------------2---------------------------2-------0-------------------
D-----------0---------------4-----------0-------------------------------
G-----------------------5-----------0-----------------------------------
D-------0---------------------------------------------------------------


e-------5---------------3-------------7~--7---------------5~------------
B---3-------------------0---------------------------------5-------------
G---------------0---2-----------------------------5---7-----------------
D-----------0---------------------------------5-------------------------
G-------0---------------------------------5-----------------------------
D-----------------------------------------------------------------------


e--3---3-------2--------------------------3-----------------------------
B------------------1---5-------3---------0------------0---1-------1-----
G--------------2-----------0------------0---------0-------2-------2-----
D----------0----------------------------------0---------------0-------0-
G----------------------5-----------5.--0--------------------------------
D------0----------------------------------------------------------------

 etc ...